Idir

a Vava Inouva

               5235ae5a 1

                                                   clique pour agrandir la tablature 

                                        

           Intro


--7---------7-7----------------------------------------3-2-3-3-2-0-3-2-------0
----8-10-----------10-10-10-10-8-7-5-3---3-3------------------------3--
------------------------------------------------------------
------------------------------------------------------------
------------------------------------------------------------
------------------------------------------------------------

-------------------------
-------------------------
-------------------------
-----------2-0-2----------2-0-2-
--------2---------------2-------
--0-3------------0-3--------


Couplet

--3-3-3-5-7-5-3-2-0----------------3-2-3-3-2-0-3-2------0--3-3-3-5-7-5-
--------------------------3----3-3---------------------------3----------------
------------------------------------------------------------
------------------------------------------------------------
------------------------------------------------------------
------------------------------------------------------------


3-2-0-----------3-2-3-3-2-0-3-2-----------0--
--------3--3-3--------------------------3----
----------------------------------
----------------------------------
----------------------------------
----------------------------------


                                                                                                                     Refrain
--0-0-0-0-0-3-5-3-2-0--3-5-3-2-0--2-2-2-2-2-0--2-3-2-0-------0--
-------------------------------------------------------------------------3----
------------------------------------------------------------
------------------------------------------------------------
------------------------------------------------------------
------------------------------------------------------------

0-0-2-3-0-
----------
----------
----------
----------
----------
 

4 votes. Moyenne 3.00 sur 5.

Ajouter un commentaire

Date de dernière mise à jour : 24/01/2016