Espagnol

Flamenco et espagnol tablature

 Le Flamenco 

Le flamenco est un genre musical et une danse, créé par le peuple andalou, sur la base d'un folklore populaire issu des diverses cultures qui s'épanouirent au long des siècles en Andalousie. Le flamenco date du xviiie siècle.


Voici quelques tablatures plus le fichier Midi

                     sanz-espagnoletta.mid sanz-espagnoletta.mid    tarrega-andalusian-dance.mid tarrega-andalusian-dance.mid

 tablature:        sanz-espagnoletta.pdf sanz-espagnoletta.pdf       tarrega-andalusian-dance.pdf tarrega-andalusian-dance.pdf 

Solo flamenco espagnol

 

e|--------0--5--4--2--1--0--1----0--1--0--------0-------------------------|
B|-----2-------------------------3------------1--3-----3------1--3-------------|
G|--2------------------------------------------------------3--------------------|
D|---------------------------------------------------------------------------|
A|---------------------------------------------------------------------------|
E|---------------------------------------------------------------------------|

e|--------0--5--4--2--1--0--1-----0--1--3----0--0--1--3--5--4--5/8--7--5--4~-|
B|-----2-------------------------3---------------------------------------------|
G|--2------------------------------------------------------------------------|
D|---------------------------------------------------------------------------|
A|---------------------------------------------------------------------------|
E|---------------------------------------------------------------------------|
Quelques Accords flamenco 

 
-1---0---0-------------
-0---1---0--------------
-0---2---3--------------
-0---3---3--------------
-2---x---2--------------
-3---x---0--------------







8 votes. Moyenne 3.25 sur 5.

Commentaires (2)

Benjamin Vanrespaille
  • 1. Benjamin Vanrespaille | 13/04/2016

C'est Vamo alla Flamenco ^^'

badji
  • 2. badji | 11/11/2015

salut

Ajouter un commentaire

Date de dernière mise à jour : 07/10/2013