Cheb Khaled

hey weddi

AM G
Hey Ouedi , hey ouedi, hey ouedi , hey ouedi...
AM G
Ga3e nass bizharom wana zahri on pano haa 
AM G
Mashi sabar ya lahbab min dil ma7na rassi shebo haa 
AM G
Hey ouedi, hey ouedi , hey ouedi . . .
AM G
Ayyit mansabbar galbi wi sbar idakhal l kbar oo haa
AM G
Oo la 7neen la r7eem wi ghir inta rabbi kreem oo haa
AM G 
Hey ouedi, hey ouedi , hey ouedi . . .
AM G
Weela galou laklem shoo bgheera ghlam oo haa 
AM G
M3aya da3wet il waldeen il welya wil sal7een oo haa
AM G
Hey ouedi, hey ouedi , hey ouedi . . .

wahran

  C                  E 
Rohi ya wahrane rohi beslama 
Dm                          C 
El galb ele kan yebghek ana nekweh  
Dm                       E 
Da3wat el jdod rahi mebleya 
Dm            E           Am 
wejme3 leyt3ada raha teddeh   x2 


E:----0-2-4-5----------(intro)----------- 

Solo : 

E|-0-2-4-5-0-5-0-5-----5-55-5-3--3---3---3--33-3--1---1---1----5-55-5-4s-| 
B|--------------------------------------3---3---------------1---1------------------| 
G|---------------------------------------------------------------------------------| 
D|---------------------------------------------------------------------------------| 
A|---------------------------------------------------------------------------------| 
E|----------------------------------------------------------------------------------


E|-0-2-4-5--8--8-88-8-7---7---7--7-77-7-5---5---5--5-55-5-4s7s4---------| 
B|--------------------------8---8---------------6---6-------------------------| 
G|-----------------------------------------------------------------------------| 
D|------------------------------------------------------------------------------| 
A|-------------------------------------------------------------------------------| 
E|-------------------------------------------------------------------------------| 

cheba

F             Dm   
cheba o ya cheba
F                E
ya cheba bent bladi
F             Dm
cheba o ya cheba
F                 E    
ya cheba bent dewari
 
 

12 votes. Moyenne 2.83 sur 5.

Ajouter un commentaire

Date de dernière mise à jour : 14/10/2013

×