chaabi

Chaabi guitare

 

Le style chaabi est un style très connu dans les pays orientaux et ceux du maghreb particuelèrement , Son instrument de grâce est le OUD mais il peut aussi être interprété avec d'autres instruments tel la guitare ou le banjo sous des gammes spécifiques . 

 

 

 

 

Ya rayah tuto 

 

tablature

Lamouni li gharou meni

------------------------------------------------------------------------------------------------------------------------------------------------
------------------------------------------------------------------------------------------ 1---------------------------------------------------
-------------0-2-3Π2--0----2-0-0----------------232020-------131------------2Π3-------32-32-0--20-----02222---------------------
--0--1--4-----------------------------33--11--0-------------44--------32320------------------------------4-----------22--333-2-000-------11-00-
-------------------------------------------------------------------------------------------------------------------------------------------------44--------
---------------------------------------------------------------------------------------------------------------------------------------------------------

------------------------------------------------------
----------------------11----131-------------------
-------------0-2-3----------------32320---------
--0--1--4-------------------------------------------
-----------------------------------------------------
-----------------------------------------------------

Tablatures aux styles chaabi ( cha3bi)

--------------------------------------------------------------------------------
--------------------------------------------------------------------------------
------------------------------------------------------5555-444-s222-------
------2~3~2--1~2----------2---------2---222-------------------------333
--------------------------------------------------------------------------------
0-----------------------0---------0--------------------------------------------

Des gammes orientales chaabi 

_----------------------------0-1-4-5-7-8-11-12 
_-----------------------1-2---------------------- 
_------------------1-2---------------------------
_-------------2-3--------------------------------                     Soyez créatif 

_--------3-4-------------------------------------
0-1-4-5------------------------------------------

 

La gamme qui sonne la plus orientale c'est la gamme mineure harmonique:

Une gamme mineure harmonique est composée successivement de :
1 ton - 1/2 ton - 1 ton - 1 ton - 1/2 ton - 1 ton 1/2 - 1/2 ton

     Soit:


DO RE MIb FA SOL LAb SI DO 

DO# RE# MI FA# SOL# LA DO DO#

RE MI FA SOL LA SIb REb RE

MIb FA SOLb LAb SIb SI RE MIb

MI FA# SOL LA SI DO RE# MI

FA SOL LAb SIb DO REb MI FA

FA# SOL# LA SI DO# RE FA FA#

SOL LA SIb DO RE MIb SOLb SOL

LAb SIb SI REb MIb MI SOL LAb

LA SI DO RE MI FA SOL# LA

SIb DO REb MIb FA SOLb LA SIb

SI DO# RE MI FA# SOL SIb SI

Remarque : Si vous n'arrivez pas a trouver les notes sur votre manche de guitare vous pouvez vous faire aider par un logiciel complet comme Guitar PRO 5  ]

18 votes. Moyenne 2.94 sur 5.

Commentaires (5)

admin
  • 1. admin | 29/01/2016

oui biensure après je vais faire un tuto chaabi guitare classique sa sonne bien des fois ;)

lotfi gan
  • 2. lotfi gan | 28/10/2015

bjr..svp une question, esk je peux jouer le chaabi avec une guitare classique ?? merci de me répondre..

sidali
  • 3. sidali | 11/10/2015

je veux tablature de ezahi esmiralda svp c urgent

Morad

Je veux Tablature du cha3bi algerois ,
Amer Ezzahi, Haj el onka elah yeraho,
Music Cha3bi saknetli fi dem.
any one who can Help!

******** 5 stars for the site thanks *********

haroun
  • 5. haroun | 14/10/2013

Je veux Tablature su chanson "el on9a hamdoulilah mab9ach isti3mar fi bladna' Merci pour ce site

Ajouter un commentaire

Date de dernière mise à jour : 24/01/2016

×