chaabi

Chaabi guitare

Le luth 13233 1

 

 

 

Le style chaabi est un style très connu dans les pays orientaux et ceux du maghreb particuelèrement , Son instrument de grâce est le OUD mais il peut aussi être interprété avec d'autres instruments tel la guitare ou le banjo sous des gammes spécifiques . 

 

 

 

 

Ya rayah tuto 

 

tablature

Lamouni li gharou meni

--------------------------------------------------------------------------------------------------------
-----------------------------------------------------------------------131------------------- --1------
-------------0-2-3Π2--0----2-0-0----------------232020---------------32320------2Π3-------
--0--1--3-----------------------------33--11--0-------------44---------------------------------------
------------------------------------------------------------------------------------------------------------
-------------------------------------------------------------------------------------------------------------

------------------------------------------------------
----------------------11----131-------------------
-------------0-2-3----------------32320---------
--0--1--4-------------------------------------------
-----------------------------------------------------
-----------------------------------------------------

Tablatures aux styles chaabi ( cha3bi)

--------------------------------------------------------------------------------
--------------------------------------------------------------------------------
------------------------------------------------------5555-444-s222-------
------2~3~2--1~2----------2---------2---222-------------------------333
--------------------------------------------------------------------------------
0-----------------------0---------0--------------------------------------------

Des gammes orientales chaabi 

_----------------------------0-1-4-5-7-8-11-12 
_-----------------------1-2---------------------- 
_------------------1-2---------------------------
_-------------2-3--------------------------------                     Soyez créatif 

_--------3-4-------------------------------------
0-1-4-5------------------------------------------

 

Amar Zahi Esmeralda tablature [click ici pour voir la tablature et entendre le son] merci tabsnitra pour le partage

Sans titre 1sd

Sans titre 1sdqds

Sans titre 3Sans titre 2vcv

30 votes. Moyenne 2.73 sur 5.

Date de dernière mise à jour : 18/06/2017

×