Babylone

zina babylone accords et tablature + Solo

 

   Laissez un commentaire , Merci 

--> Voir les Paroles <--

----------------------3------3------------------------------------3------3--                                      
---------------3-----------3---3-------------------------3------------3---3--                                                                                                                                                 
------------0----0------------------------------------0----0------------------                                                                        SOL (G)                           G6/C                    G6                               Re (D)   
----------------------------------------------------------------------------------- 
-------------------------------------------------3---------------------------------
----3-----------------------------------------------------------------------------

 

----------------------3------3---------------------------------------2------2---
---------------3-----------3---3-----------------------------3-----------3---3-
------------0----0-----------------------------------------2----2----------------  
------------------------------------------------------0--------------------------
-----2----------------------------------------------------------------------------
----------------------------------------------------------------------------------    

                                                                                                                                      SOLO zina guitare       

Mi---------------------------------------------------------------------------------------------
  ---------------------------------------------------------------------------------------------
   7s9-7-----------7------------------7-9v-9h7--------------------77---7s9-7---zina babylone
  ----------9--7h9----7-5-7----7s9----------------9-7-9---7h9----------------
  ------------------------------------------------------------------------------------------
Mi------------------------------------------------------------------------------------------

Mi---------------------------------------------------------------------------------------------
  ---------------------------------------------------------------------------------------------
 ------------------7------------------------7-9v----12-11-7---------------------------
  ----9--7h9---------7-5-7----7s9--------------------------------------------------
  ------------------------------------------------------------------------------------------
Mi------------------------------------------------------------------------------------------

 

S = glissez pour arriver a la note suivante 

h = arriver a la note suivante sans glisser

v = faites vibrer la note

 

 

Reprise après le solo

9alouli khrajti fedlaaam...

--------------------------------3-----3-----
-----------------------3------------3---3---
--------------------0----0------------------
----------------------------------------------
-----------0 2 3------------------------------
-----------------------------------------------

tablature chfai el barah

chfay lbarah ki kouna nemchou     fou9 sekka            w nahalmou

-------↓10----------10-----------11-----------14-------               
------
-↓11----------11-----------11-----------14-------
-10-----------------10----------------12------------------15-----------------------
----------------------------------------------------------------------------------------
----------------------------------------------------------------------------------------
----------------------------------------------------------------------------------------
 

   ( inscrivez vous sur la newsletter pour Recevoir les nouvelles Tablatures par Mails )

bkitini bdem3a

c'est un arpège roulé 

 

bakitini                                   w          dmou3               saleeeeeeeeeet 

------------------0-------------------0-------------------3-----------------3-------                                      
---------------0-----0------------0-----0-------------3----3-----------3----3-----                                                        
------------0-----------0------0-----------0-------0----------0-----0----------0--                                                        
---------------------------------------------------------------------------------------- ​​
------2---------------------2-------------------------------------------------------​---
-------------------------------------------------3------------------3------------------

             mel3ine                                    salet salet .....

------------------0------------------0-------------------2------------------2-------                                      
---------------1-----1------------1-----1-------------3-----3------------3-----3----                                                         
------------2-----------1------2----------2-------2----------2------2-----------2-                                             
------------------------------------------------0------------------0------------------- ​​​​
-----0----------------------0-------------------------------------------------------​---
----------------------------------------------------------------------------------------

 

29 votes. Moyenne 4.24 sur 5.

Date de dernière mise à jour : 27/01/2019