Créer un site gratuitement Close

Babylone

zina babylone accords et tablature + Solo

 

zina babylone

 

  Laissez un commentaire , Merci 

 

 

 

----------------------3------3------------------------------------3------3--                                      
---------------3-----------3---3-------------------------3------------3---3--
------------0----0------------------------------------0----0------------------
----------------------------------------------------------------------------------- 
-------------------------------------------------3---------------------------------
----3-----------------------------------------------------------------------------

Ecoutez la chanson Et voir les paroles

----------------------3------3---------------------------------------2------2---
---------------3-----------3---3-----------------------------3-----------3---3-
------------0----0-----------------------------------------2----2----------------  
------------------------------------------------------0--------------------------
-----2----------------------------------------------------------------------------
----------------------------------------------------------------------------------                                                                                                                                                                 

 

 

                                                                                                                                                          

 

 

  

  SOLO zina guitare    Telecharger [solo zina guitar pro]       

-----------------------------------------------------------------------------------------------------------------------------------------
----------------------------------------------------------------------------------------------------------------------------------------
-7s9-7-----------7------------------7-9v-9h7------------------77---7s9-7-------------7---------------------7-9v---12 11--7---
---------9--7h9----7-5-7----7s9----------------9-7-9---7h9-----------------9--7h9-------7-5-7----7s9------------------------
----------------------------------------------------------------------------------------------------------------------------------------
----------------------------------------------------------------------------------------------------------------------------------------

S = glissez pour arriver a la note suivante 

h = arriver a la note suivante sans glisser

v = faites vibrer la note


Reprise après le solo

9alouli khrajti fedlaaam...

--------------------------------3-----3-----
-----------------------3------------3---3---
--------------------0----0------------------
----------------------------------------------
-----------0 2 3------------------------------
-----------------------------------------------

 


    video-icone-8610-48.png  petite video tuto de youtube

tablature chfai el barah

chfay lbarah ki kouna nemchou                              fou9 sekka                       w nahalmou

-------10----------10-----------11-----------14-------               
------
-11----------11-----------11-----------14-------
-10-----------------10----------------12------------------15-----------------------
----------------------------------------------------------------------------------------
----------------------------------------------------------------------------------------
----------------------------------------------------------------------------------------
 

   ( inscrivez vous sur la newsletter pour Recevoir les nouvelles Tablatures par Mails ) 

 

10 votes. Moyenne 4.60 sur 5.

Commentaires (15)

1. arab 31/03/2014

merci pour les tabmatures

2. farah 26/03/2014

Bonjour je voudrai que j'ai besoin du pdf solo zina mais je n'arrive plus a le telecharger aidez moi svp

3. Samiemo 14/03/2014

khoya rak ghalet fi 9h7 hiya 9...7 mich 9h7 parceque el h tetl3ab ghir kima ji tala3 mathlen kon 3kesstha khoya ji 7h9 hadi teslo7 correct mais 9h7 nn ghhlata false aa chriki ou mer6 becoupe pour les tabs ci tre tre gentil

4. benamara 12/03/2014

5. sbai (site web) 22/02/2014

je veux les notes mes ou sont il :'(

Voir plus de commentaires
Ajouter un commentaire

Date de dernière mise à jour : 16/10/2013

Créer un site gratuit avec e-monsite - Signaler un contenu illicite sur ce site